ISO-10303-21;
HEADER;
FILE_DESCRIPTION (( 'STEP AP203' ),
    '1' );
FILE_NAME ('¿¹±¶ÌØ°å1005020.STEP',
    '2026-03-06T09:00:12',
    ( '' ),
    ( '' ),
    'SwSTEP 2.0',
    'SolidWorks 2024',
    '' );
FILE_SCHEMA (( 'CONFIG_CONTROL_DESIGN' ));
ENDSEC;

DATA;
#1 = ORIENTED_EDGE ( 'NONE', *, *, #95, .T. ) ;
#2 = PERSON_AND_ORGANIZATION_ROLE ( 'design_supplier' ) ;
#3 = EDGE_LOOP ( 'NONE', ( #77, #51, #75, #54 ) ) ;
#4 = VERTEX_POINT ( 'NONE', #213 ) ;
#5 = DATE_AND_TIME ( #102, #171 ) ;
#6 = FACE_OUTER_BOUND ( 'NONE', #94, .T. ) ;
#7 = PERSON_AND_ORGANIZATION ( #272, #241 ) ;
#8 = AXIS2_PLACEMENT_3D ( 'NONE', #148, #128, #96 ) ;
#9 = CARTESIAN_POINT ( 'NONE',  ( 50.00000000000000000, -24.99999999999999289, 20.00000000000000000 ) ) ;
#10 = ORIENTED_EDGE ( 'NONE', *, *, #126, .F. ) ;
#11 = PLANE ( 'NONE',  #147 ) ;
#12 = AXIS2_PLACEMENT_3D ( 'NONE', #115, #196, #203 ) ;
#13 = VECTOR ( 'NONE', #92, 999.9999999999998863 ) ;
#14 = DIRECTION ( 'NONE',  ( -1.000000000000000000, 0.0000000000000000000, 0.0000000000000000000 ) ) ;
#15 = DIRECTION ( 'NONE',  ( 1.000000000000000000, 1.387778780781445676E-16, -0.0000000000000000000 ) ) ;
#16 = FACE_OUTER_BOUND ( 'NONE', #313, .T. ) ;
#17 = EDGE_CURVE ( 'NONE', #4, #253, #144, .T. ) ;
#18 = VECTOR ( 'NONE', #175, 1000.000000000000000 ) ;
#19 = CC_DESIGN_APPROVAL ( #304, ( #248 ) ) ;
#20 = DIRECTION ( 'NONE',  ( 1.000000000000000000, 1.387778780781445676E-16, 0.0000000000000000000 ) ) ;
#21 = ADVANCED_FACE ( 'NONE', ( #315 ), #76, .F. ) ;
#22 = VERTEX_POINT ( 'NONE', #28 ) ;
#23 = FACE_OUTER_BOUND ( 'NONE', #3, .T. ) ;
#24 = COORDINATED_UNIVERSAL_TIME_OFFSET ( 8, 0, .AHEAD. ) ;
#25 = DIRECTION ( 'NONE',  ( -1.000000000000000000, -1.387778780781445676E-16, 0.0000000000000000000 ) ) ;
#26 = LOCAL_TIME ( 17, 0, 12.00000000000000000, #49 ) ;
#27 = PERSON_AND_ORGANIZATION_ROLE ( 'classification_officer' ) ;
#28 = CARTESIAN_POINT ( 'NONE',  ( 49.50000000000001421, -24.50000000000000711, 20.00000000000000000 ) ) ;
#29 = DIRECTION ( 'NONE',  ( -9.813077866773730069E-17, 0.7071067811865573427, 0.7071067811865378028 ) ) ;
#30 = PERSON_AND_ORGANIZATION ( #272, #241 ) ;
#31 = CARTESIAN_POINT ( 'NONE',  ( 50.00000000000000000, -24.99999999999999289, 0.0000000000000000000 ) ) ;
#32 = ORIENTED_EDGE ( 'NONE', *, *, #116, .F. ) ;
#33 =( LENGTH_UNIT ( ) NAMED_UNIT ( * ) SI_UNIT ( .MILLI., .METRE. ) );
#34 = VECTOR ( 'NONE', #242, 1000.000000000000000 ) ;
#35 = ORIENTED_EDGE ( 'NONE', *, *, #126, .T. ) ;
#36 = ADVANCED_FACE ( 'NONE', ( #111 ), #81, .F. ) ;
#37 = DIRECTION ( 'NONE',  ( -0.0000000000000000000, -0.0000000000000000000, -1.000000000000000000 ) ) ;
#38 = LOCAL_TIME ( 17, 0, 12.00000000000000000, #314 ) ;
#39 = FACE_OUTER_BOUND ( 'NONE', #233, .T. ) ;
#40 = PLANE ( 'NONE',  #60 ) ;
#41 = DESIGN_CONTEXT ( 'detailed design', #278, 'design' ) ;
#42 = ADVANCED_BREP_SHAPE_REPRESENTATION ( '\X2\6297500d7279677f\X0\1005020', ( #151, #141 ), #97 ) ;
#43 = LINE ( 'NONE', #174, #18 ) ;
#44 = PLANE ( 'NONE',  #185 ) ;
#45 = ORIENTED_EDGE ( 'NONE', *, *, #122, .T. ) ;
#46 = SHAPE_DEFINITION_REPRESENTATION ( #83, #42 ) ;
#47 = PERSON_AND_ORGANIZATION_ROLE ( 'creator' ) ;
#48 = CARTESIAN_POINT ( 'NONE',  ( 50.00000000000000000, -24.99999999999999289, 20.00000000000000000 ) ) ;
#49 = COORDINATED_UNIVERSAL_TIME_OFFSET ( 8, 0, .AHEAD. ) ;
#50 = CARTESIAN_POINT ( 'NONE',  ( -50.00000000000000000, -25.00000000000000711, 19.50000000000000000 ) ) ;
#51 = ORIENTED_EDGE ( 'NONE', *, *, #64, .F. ) ;
#52 = PERSON_AND_ORGANIZATION ( #272, #241 ) ;
#53 = DIRECTION ( 'NONE',  ( 0.0000000000000000000, 1.000000000000000000, 0.0000000000000000000 ) ) ;
#54 = ORIENTED_EDGE ( 'NONE', *, *, #158, .F. ) ;
#55 = APPLICATION_PROTOCOL_DEFINITION ( 'international standard', 'config_control_design', 1994, #278 ) ;
#56 = DIRECTION ( 'NONE',  ( 1.000000000000000000, 1.387778780781445676E-16, 0.0000000000000000000 ) ) ;
#57 = VECTOR ( 'NONE', #88, 1000.000000000000114 ) ;
#58 = PLANE ( 'NONE',  #323 ) ;
#59 = EDGE_CURVE ( 'NONE', #216, #211, #74, .T. ) ;
#60 = AXIS2_PLACEMENT_3D ( 'NONE', #121, #246, #20 ) ;
#61 = CC_DESIGN_APPROVAL ( #194, ( #90 ) ) ;
#62 = CARTESIAN_POINT ( 'NONE',  ( -50.00000000000000000, 24.99999999999999289, 19.50000000000000000 ) ) ;
#63 = FACE_OUTER_BOUND ( 'NONE', #305, .T. ) ;
#64 = EDGE_CURVE ( 'NONE', #67, #309, #184, .T. ) ;
#65 = DIRECTION ( 'NONE',  ( 1.000000000000000000, 0.0000000000000000000, -0.0000000000000000000 ) ) ;
#66 = CARTESIAN_POINT ( 'NONE',  ( -49.50000000000001421, -25.00000000000000711, 20.00000000000000000 ) ) ;
#67 = VERTEX_POINT ( 'NONE', #50 ) ;
#68 = APPROVAL_ROLE ( '' ) ;
#69 = ORIENTED_EDGE ( 'NONE', *, *, #275, .T. ) ;
#70 = APPLICATION_PROTOCOL_DEFINITION ( 'international standard', 'config_control_design', 1994, #325 ) ;
#71 = LINE ( 'NONE', #286, #273 ) ;
#72 = ORIENTED_EDGE ( 'NONE', *, *, #158, .T. ) ;
#73 = APPROVAL_ROLE ( '' ) ;
#74 = LINE ( 'NONE', #31, #82 ) ;
#75 = ORIENTED_EDGE ( 'NONE', *, *, #308, .F. ) ;
#76 = PLANE ( 'NONE',  #176 ) ;
#77 = ORIENTED_EDGE ( 'NONE', *, *, #283, .T. ) ;
#78 = ADVANCED_FACE ( 'NONE', ( #218 ), #288, .T. ) ;
#79 = APPROVAL_STATUS ( 'not_yet_approved' ) ;
#80 = DIRECTION ( 'NONE',  ( -1.000000000000000000, -1.387778780781445676E-16, 0.0000000000000000000 ) ) ;
#81 = PLANE ( 'NONE',  #132 ) ;
#82 = VECTOR ( 'NONE', #192, 1000.000000000000000 ) ;
#83 = PRODUCT_DEFINITION_SHAPE ( 'NONE', 'NONE',  #292 ) ;
#84 = VECTOR ( 'NONE', #37, 1000.000000000000000 ) ;
#85 = CC_DESIGN_SECURITY_CLASSIFICATION ( #90, ( #248 ) ) ;
#86 = CC_DESIGN_DATE_AND_TIME_ASSIGNMENT ( #156, #306, ( #292 ) ) ;
#87 = PLANE ( 'NONE',  #12 ) ;
#88 = DIRECTION ( 'NONE',  ( -0.5773502691896204020, -0.5773502691896205130, -0.5773502691896362782 ) ) ;
#89 = CARTESIAN_POINT ( 'NONE',  ( 50.00000000000000000, 25.00000000000000711, 20.00000000000000000 ) ) ;
#90 = SECURITY_CLASSIFICATION ( '', '', #238 ) ;
#91 = ADVANCED_FACE ( 'NONE', ( #193 ), #58, .T. ) ;
#92 = DIRECTION ( 'NONE',  ( -0.5773502691896205130, 0.5773502691896204020, -0.5773502691896363892 ) ) ;
#93 = CARTESIAN_POINT ( 'NONE',  ( -33.00000000000031264, 8.000000000000309086, 36.50000000000015632 ) ) ;
#94 = EDGE_LOOP ( 'NONE', ( #72, #250, #252, #1 ) ) ;
#95 = EDGE_CURVE ( 'NONE', #253, #142, #139, .T. ) ;
#96 = DIRECTION ( 'NONE',  ( -0.0000000000000000000, 1.000000000000000000, 0.0000000000000000000 ) ) ;
#97 =( GEOMETRIC_REPRESENTATION_CONTEXT ( 3 ) GLOBAL_UNCERTAINTY_ASSIGNED_CONTEXT ( ( #140 ) ) GLOBAL_UNIT_ASSIGNED_CONTEXT ( ( #33, #179, #251 ) ) REPRESENTATION_CONTEXT ( 'NONE', 'WORKASPACE' ) );
#98 = DATE_AND_TIME ( #113, #186 ) ;
#99 = CC_DESIGN_PERSON_AND_ORGANIZATION_ASSIGNMENT ( #7, #27, ( #90 ) ) ;
#100 = DIRECTION ( 'NONE',  ( 1.000000000000000000, 1.387778780781445676E-16, 0.0000000000000000000 ) ) ;
#101 = ORIENTED_EDGE ( 'NONE', *, *, #257, .F. ) ;
#102 = CALENDAR_DATE ( 2026, 6, 3 ) ;
#103 = VERTEX_POINT ( 'NONE', #136 ) ;
#104 = EDGE_CURVE ( 'NONE', #309, #4, #131, .T. ) ;
#105 = ORIENTED_EDGE ( 'NONE', *, *, #104, .F. ) ;
#106 = DATE_AND_TIME ( #143, #330 ) ;
#107 = CARTESIAN_POINT ( 'NONE',  ( -50.00000000000000000, 24.99999999999999289, 19.50000000000000000 ) ) ;
#108 = AXIS2_PLACEMENT_3D ( 'NONE', #244, #152, #65 ) ;
#109 = ORIENTED_EDGE ( 'NONE', *, *, #17, .F. ) ;
#110 = APPROVAL_ROLE ( '' ) ;
#111 = FACE_OUTER_BOUND ( 'NONE', #328, .T. ) ;
#112 = VERTEX_POINT ( 'NONE', #208 ) ;
#113 = CALENDAR_DATE ( 2026, 6, 3 ) ;
#114 = DIRECTION ( 'NONE',  ( 0.0000000000000000000, -0.0000000000000000000, 1.000000000000000000 ) ) ;
#115 = CARTESIAN_POINT ( 'NONE',  ( 49.50000000000001421, 0.0000000000000000000, 20.00000000000000000 ) ) ;
#116 = EDGE_CURVE ( 'NONE', #4, #287, #159, .T. ) ;
#117 = CLOSED_SHELL ( 'NONE', ( #36, #21, #293, #222, #119, #173, #91, #295, #133, #78 ) ) ;
#118 = VECTOR ( 'NONE', #80, 1000.000000000000000 ) ;
#119 = ADVANCED_FACE ( 'NONE', ( #6 ), #11, .T. ) ;
#120 = LINE ( 'NONE', #205, #57 ) ;
#121 = CARTESIAN_POINT ( 'NONE',  ( 50.00000000000000000, 25.00000000000000711, 20.00000000000000000 ) ) ;
#122 = EDGE_CURVE ( 'NONE', #287, #22, #71, .T. ) ;
#123 = DIRECTION ( 'NONE',  ( 0.0000000000000000000, -1.000000000000000000, 0.0000000000000000000 ) ) ;
#124 = VECTOR ( 'NONE', #264, 1000.000000000000000 ) ;
#125 = LINE ( 'NONE', #297, #169 ) ;
#126 = EDGE_CURVE ( 'NONE', #287, #216, #281, .T. ) ;
#127 = ORIENTED_EDGE ( 'NONE', *, *, #283, .F. ) ;
#128 = DIRECTION ( 'NONE',  ( -0.7071067811865573427, -0.0000000000000000000, 0.7071067811865378028 ) ) ;
#129 = ORIENTED_EDGE ( 'NONE', *, *, #291, .F. ) ;
#130 = PERSON_AND_ORGANIZATION ( #272, #241 ) ;
#131 = LINE ( 'NONE', #180, #302 ) ;
#132 = AXIS2_PLACEMENT_3D ( 'NONE', #230, #235, #311 ) ;
#133 = ADVANCED_FACE ( 'NONE', ( #146 ), #87, .T. ) ;
#134 = EDGE_LOOP ( 'NONE', ( #190, #161, #225, #32 ) ) ;
#135 = PERSON_AND_ORGANIZATION_ROLE ( 'design_owner' ) ;
#136 = CARTESIAN_POINT ( 'NONE',  ( -50.00000000000000000, -25.00000000000000711, 0.0000000000000000000 ) ) ;
#137 = PRODUCT_RELATED_PRODUCT_CATEGORY ( 'detail', '', ( #145 ) ) ;
#138 = CALENDAR_DATE ( 2026, 6, 3 ) ;
#139 = LINE ( 'NONE', #165, #118 ) ;
#140 = UNCERTAINTY_MEASURE_WITH_UNIT (LENGTH_MEASURE( 1.000000000000000082E-05 ), #33, 'distance_accuracy_value', 'NONE');
#141 = AXIS2_PLACEMENT_3D ( 'NONE', #188, #280, #260 ) ;
#142 = VERTEX_POINT ( 'NONE', #271 ) ;
#143 = CALENDAR_DATE ( 2026, 6, 3 ) ;
#144 = LINE ( 'NONE', #239, #268 ) ;
#145 = PRODUCT ( '\X2\6297500d7279677f\X0\1005020', '\X2\6297500d7279677f\X0\1005020', '', ( #254 ) ) ;
#146 = FACE_OUTER_BOUND ( 'NONE', #134, .T. ) ;
#147 = AXIS2_PLACEMENT_3D ( 'NONE', #163, #114, #307 ) ;
#148 = CARTESIAN_POINT ( 'NONE',  ( -49.50000000000001421, 0.0000000000000000000, 20.00000000000000000 ) ) ;
#149 = DIRECTION ( 'NONE',  ( -1.000000000000000000, -1.387778780781445676E-16, -0.0000000000000000000 ) ) ;
#150 = CARTESIAN_POINT ( 'NONE',  ( 49.50000000000001421, 24.50000000000002132, 20.00000000000000000 ) ) ;
#151 = MANIFOLD_SOLID_BREP ( '\X2\501289d2\X0\1', #117 ) ;
#152 = DIRECTION ( 'NONE',  ( 0.0000000000000000000, -0.0000000000000000000, 1.000000000000000000 ) ) ;
#153 = VECTOR ( 'NONE', #274, 1000.000000000000000 ) ;
#154 = DIRECTION ( 'NONE',  ( 0.0000000000000000000, 0.0000000000000000000, 1.000000000000000000 ) ) ;
#155 = EDGE_LOOP ( 'NONE', ( #263, #157, #45, #279 ) ) ;
#156 = DATE_AND_TIME ( #138, #38 ) ;
#157 = ORIENTED_EDGE ( 'NONE', *, *, #240, .F. ) ;
#158 = EDGE_CURVE ( 'NONE', #142, #112, #298, .T. ) ;
#159 = LINE ( 'NONE', #232, #124 ) ;
#160 = CARTESIAN_POINT ( 'NONE',  ( 3.400058012914544272E-15, -24.50000000000001421, 20.00000000000000000 ) ) ;
#161 = ORIENTED_EDGE ( 'NONE', *, *, #197, .F. ) ;
#162 = APPROVAL_DATE_TIME ( #106, #181 ) ;
#163 = CARTESIAN_POINT ( 'NONE',  ( 0.0000000000000000000, 0.0000000000000000000, 20.00000000000000000 ) ) ;
#164 = APPROVAL_STATUS ( 'not_yet_approved' ) ;
#165 = CARTESIAN_POINT ( 'NONE',  ( -50.00000000000000000, 24.50000000000000711, 20.00000000000000000 ) ) ;
#166 = EDGE_CURVE ( 'NONE', #309, #285, #43, .T. ) ;
#167 = VECTOR ( 'NONE', #168, 1000.000000000000000 ) ;
#168 = DIRECTION ( 'NONE',  ( 0.0000000000000000000, 1.000000000000000000, 0.0000000000000000000 ) ) ;
#169 = VECTOR ( 'NONE', #149, 1000.000000000000000 ) ;
#170 = CARTESIAN_POINT ( 'NONE',  ( 50.00000000000000000, 25.00000000000000711, 0.0000000000000000000 ) ) ;
#171 = LOCAL_TIME ( 17, 0, 12.00000000000000000, #227 ) ;
#172 = PLANE ( 'NONE',  #108 ) ;
#173 = ADVANCED_FACE ( 'NONE', ( #16 ), #172, .F. ) ;
#174 = CARTESIAN_POINT ( 'NONE',  ( -50.00000000000000000, 24.99999999999999289, 20.00000000000000000 ) ) ;
#175 = DIRECTION ( 'NONE',  ( -0.0000000000000000000, -0.0000000000000000000, -1.000000000000000000 ) ) ;
#176 = AXIS2_PLACEMENT_3D ( 'NONE', #9, #228, #25 ) ;
#177 = APPROVAL_DATE_TIME ( #303, #194 ) ;
#178 = ORIENTED_EDGE ( 'NONE', *, *, #240, .T. ) ;
#179 =( NAMED_UNIT ( * ) PLANE_ANGLE_UNIT ( ) SI_UNIT ( $, .RADIAN. ) );
#180 = CARTESIAN_POINT ( 'NONE',  ( 50.00000000000000000, 25.00000000000000711, 19.50000000000000000 ) ) ;
#181 = APPROVAL ( #164, 'æœª' ) ;
#182 = ORIENTED_EDGE ( 'NONE', *, *, #95, .F. ) ;
#183 = PERSON_AND_ORGANIZATION ( #272, #241 ) ;
#184 = LINE ( 'NONE', #107, #320 ) ;
#185 = AXIS2_PLACEMENT_3D ( 'NONE', #249, #14, #154 ) ;
#186 = LOCAL_TIME ( 17, 0, 12.00000000000000000, #332 ) ;
#187 = ORIENTED_EDGE ( 'NONE', *, *, #266, .T. ) ;
#188 = CARTESIAN_POINT ( 'NONE',  ( 0.0000000000000000000, 0.0000000000000000000, 0.0000000000000000000 ) ) ;
#189 = ORIENTED_EDGE ( 'NONE', *, *, #266, .F. ) ;
#190 = ORIENTED_EDGE ( 'NONE', *, *, #17, .T. ) ;
#191 = CALENDAR_DATE ( 2026, 6, 3 ) ;
#192 = DIRECTION ( 'NONE',  ( 0.0000000000000000000, 1.000000000000000000, 0.0000000000000000000 ) ) ;
#193 = FACE_OUTER_BOUND ( 'NONE', #212, .T. ) ;
#194 = APPROVAL ( #79, 'æœª' ) ;
#195 = CC_DESIGN_APPROVAL ( #181, ( #292 ) ) ;
#196 = DIRECTION ( 'NONE',  ( 0.7071067811865573427, 0.0000000000000000000, 0.7071067811865378028 ) ) ;
#197 = EDGE_CURVE ( 'NONE', #22, #253, #267, .T. ) ;
#198 = VECTOR ( 'NONE', #294, 1000.000000000000000 ) ;
#199 = CARTESIAN_POINT ( 'NONE',  ( 50.00000000000000000, -24.50000000000000711, 20.00000000000000000 ) ) ;
#200 = EDGE_CURVE ( 'NONE', #211, #285, #269, .T. ) ;
#201 = VECTOR ( 'NONE', #123, 1000.000000000000000 ) ;
#202 = CARTESIAN_POINT ( 'NONE',  ( 50.00000000000000000, -24.99999999999999289, 0.0000000000000000000 ) ) ;
#203 = DIRECTION ( 'NONE',  ( 0.0000000000000000000, -1.000000000000000000, 0.0000000000000000000 ) ) ;
#204 = CARTESIAN_POINT ( 'NONE',  ( -50.00000000000000000, 24.99999999999999289, 0.0000000000000000000 ) ) ;
#205 = CARTESIAN_POINT ( 'NONE',  ( -41.33333333333349202, -16.33333333333349557, 28.16666666666674956 ) ) ;
#206 = ORIENTED_EDGE ( 'NONE', *, *, #166, .T. ) ;
#207 = PERSON_AND_ORGANIZATION ( #272, #241 ) ;
#208 = CARTESIAN_POINT ( 'NONE',  ( -49.50000000000001421, -24.50000000000002132, 20.00000000000000000 ) ) ;
#209 = CC_DESIGN_PERSON_AND_ORGANIZATION_ASSIGNMENT ( #310, #231, ( #292 ) ) ;
#210 = ORIENTED_EDGE ( 'NONE', *, *, #291, .T. ) ;
#211 = VERTEX_POINT ( 'NONE', #170 ) ;
#212 = EDGE_LOOP ( 'NONE', ( #109, #105, #127, #182 ) ) ;
#213 = CARTESIAN_POINT ( 'NONE',  ( 50.00000000000000000, 25.00000000000000711, 19.50000000000000000 ) ) ;
#214 = VECTOR ( 'NONE', #270, 1000.000000000000000 ) ;
#215 = APPROVAL_PERSON_ORGANIZATION ( #207, #194, #73 ) ;
#216 = VERTEX_POINT ( 'NONE', #322 ) ;
#217 = PERSON_AND_ORGANIZATION ( #272, #241 ) ;
#218 = FACE_OUTER_BOUND ( 'NONE', #155, .T. ) ;
#219 = ORIENTED_EDGE ( 'NONE', *, *, #59, .F. ) ;
#220 = LINE ( 'NONE', #199, #198 ) ;
#221 = LINE ( 'NONE', #93, #13 ) ;
#222 = ADVANCED_FACE ( 'NONE', ( #39 ), #40, .F. ) ;
#223 = LINE ( 'NONE', #224, #290 ) ;
#224 = CARTESIAN_POINT ( 'NONE',  ( -50.00000000000000000, -25.00000000000000711, 0.0000000000000000000 ) ) ;
#225 = ORIENTED_EDGE ( 'NONE', *, *, #122, .F. ) ;
#226 = CARTESIAN_POINT ( 'NONE',  ( 50.00000000000000000, 25.00000000000000711, 0.0000000000000000000 ) ) ;
#227 = COORDINATED_UNIVERSAL_TIME_OFFSET ( 8, 0, .AHEAD. ) ;
#228 = DIRECTION ( 'NONE',  ( -1.387778780781445676E-16, 1.000000000000000000, 0.0000000000000000000 ) ) ;
#229 = CC_DESIGN_PERSON_AND_ORGANIZATION_ASSIGNMENT ( #183, #2, ( #248 ) ) ;
#230 = CARTESIAN_POINT ( 'NONE',  ( -50.00000000000000000, -25.00000000000000711, 20.00000000000000000 ) ) ;
#231 = PERSON_AND_ORGANIZATION_ROLE ( 'creator' ) ;
#232 = CARTESIAN_POINT ( 'NONE',  ( 50.00000000000000000, -24.99999999999999289, 19.50000000000000000 ) ) ;
#233 = EDGE_LOOP ( 'NONE', ( #237, #316, #210, #256 ) ) ;
#234 = APPROVAL_DATE_TIME ( #5, #304 ) ;
#235 = DIRECTION ( 'NONE',  ( 1.000000000000000000, 0.0000000000000000000, 0.0000000000000000000 ) ) ;
#236 = APPROVAL_PERSON_ORGANIZATION ( #52, #181, #110 ) ;
#237 = ORIENTED_EDGE ( 'NONE', *, *, #166, .F. ) ;
#238 = SECURITY_CLASSIFICATION_LEVEL ( 'unclassified' ) ;
#239 = CARTESIAN_POINT ( 'NONE',  ( 33.00000000000031264, 8.000000000000316192, 36.50000000000015632 ) ) ;
#240 = EDGE_CURVE ( 'NONE', #287, #67, #125, .T. ) ;
#241 = ORGANIZATION ( 'æœª', 'æœª', '' ) ;
#242 = DIRECTION ( 'NONE',  ( -0.0000000000000000000, -0.0000000000000000000, -1.000000000000000000 ) ) ;
#243 = CC_DESIGN_DATE_AND_TIME_ASSIGNMENT ( #98, #317, ( #90 ) ) ;
#244 = CARTESIAN_POINT ( 'NONE',  ( 0.0000000000000000000, 0.0000000000000000000, 0.0000000000000000000 ) ) ;
#245 = LINE ( 'NONE', #202, #300 ) ;
#246 = DIRECTION ( 'NONE',  ( 1.387778780781445676E-16, -1.000000000000000000, 0.0000000000000000000 ) ) ;
#247 = CARTESIAN_POINT ( 'NONE',  ( 49.50000000000001421, 25.00000000000000711, 20.00000000000000000 ) ) ;
#248 = PRODUCT_DEFINITION_FORMATION_WITH_SPECIFIED_SOURCE ( 'ä»', '', #145, .NOT_KNOWN. ) ;
#249 = CARTESIAN_POINT ( 'NONE',  ( 50.00000000000000000, -24.99999999999999289, 20.00000000000000000 ) ) ;
#250 = ORIENTED_EDGE ( 'NONE', *, *, #326, .T. ) ;
#251 =( NAMED_UNIT ( * ) SI_UNIT ( $, .STERADIAN. ) SOLID_ANGLE_UNIT ( ) );
#252 = ORIENTED_EDGE ( 'NONE', *, *, #197, .T. ) ;
#253 = VERTEX_POINT ( 'NONE', #150 ) ;
#254 = MECHANICAL_CONTEXT ( 'NONE', #325, 'mechanical' ) ;
#255 = ORIENTED_EDGE ( 'NONE', *, *, #275, .F. ) ;
#256 = ORIENTED_EDGE ( 'NONE', *, *, #200, .T. ) ;
#257 = EDGE_CURVE ( 'NONE', #285, #103, #223, .T. ) ;
#258 = DIRECTION ( 'NONE',  ( -1.000000000000000000, -1.387778780781445676E-16, 0.0000000000000000000 ) ) ;
#259 = ORIENTED_EDGE ( 'NONE', *, *, #116, .T. ) ;
#260 = DIRECTION ( 'NONE',  ( 1.000000000000000000, 0.0000000000000000000, 0.0000000000000000000 ) ) ;
#261 = DIRECTION ( 'NONE',  ( -0.5773502691896205130, 0.5773502691896204020, 0.5773502691896363892 ) ) ;
#262 = CC_DESIGN_PERSON_AND_ORGANIZATION_ASSIGNMENT ( #30, #135, ( #145 ) ) ;
#263 = ORIENTED_EDGE ( 'NONE', *, *, #308, .T. ) ;
#264 = DIRECTION ( 'NONE',  ( 0.0000000000000000000, -1.000000000000000000, 0.0000000000000000000 ) ) ;
#265 = APPROVAL_PERSON_ORGANIZATION ( #130, #304, #68 ) ;
#266 = EDGE_CURVE ( 'NONE', #103, #216, #245, .T. ) ;
#267 = LINE ( 'NONE', #247, #167 ) ;
#268 = VECTOR ( 'NONE', #333, 1000.000000000000114 ) ;
#269 = LINE ( 'NONE', #226, #214 ) ;
#270 = DIRECTION ( 'NONE',  ( -1.000000000000000000, -1.387778780781445676E-16, 0.0000000000000000000 ) ) ;
#271 = CARTESIAN_POINT ( 'NONE',  ( -49.50000000000001421, 24.50000000000000711, 20.00000000000000000 ) ) ;
#272 = PERSON ( 'æœª', 'æœª', 'æœª', ('æœª'), ('æœª'), ('æœª') ) ;
#273 = VECTOR ( 'NONE', #261, 999.9999999999998863 ) ;
#274 = DIRECTION ( 'NONE',  ( -0.0000000000000000000, -0.0000000000000000000, -1.000000000000000000 ) ) ;
#275 = EDGE_CURVE ( 'NONE', #67, #103, #321, .T. ) ;
#276 = ORIENTED_EDGE ( 'NONE', *, *, #257, .T. ) ;
#277 = APPROVAL_STATUS ( 'not_yet_approved' ) ;
#278 = APPLICATION_CONTEXT ( 'configuration controlled 3d designs of mechanical parts and assemblies' ) ;
#279 = ORIENTED_EDGE ( 'NONE', *, *, #326, .F. ) ;
#280 = DIRECTION ( 'NONE',  ( 0.0000000000000000000, 0.0000000000000000000, 1.000000000000000000 ) ) ;
#281 = LINE ( 'NONE', #48, #34 ) ;
#282 = ORIENTED_EDGE ( 'NONE', *, *, #59, .T. ) ;
#283 = EDGE_CURVE ( 'NONE', #142, #309, #221, .T. ) ;
#284 = DIRECTION ( 'NONE',  ( 9.813077866773730069E-17, -0.7071067811865573427, 0.7071067811865378028 ) ) ;
#285 = VERTEX_POINT ( 'NONE', #204 ) ;
#286 = CARTESIAN_POINT ( 'NONE',  ( 41.33333333333349913, -16.33333333333348847, 28.16666666666674246 ) ) ;
#287 = VERTEX_POINT ( 'NONE', #299 ) ;
#288 = PLANE ( 'NONE',  #296 ) ;
#289 = ORIENTED_EDGE ( 'NONE', *, *, #64, .T. ) ;
#290 = VECTOR ( 'NONE', #324, 1000.000000000000000 ) ;
#291 = EDGE_CURVE ( 'NONE', #4, #211, #319, .T. ) ;
#292 = PRODUCT_DEFINITION ( 'æœ', '', #248, #41 ) ;
#293 = ADVANCED_FACE ( 'NONE', ( #63 ), #44, .F. ) ;
#294 = DIRECTION ( 'NONE',  ( 1.000000000000000000, 1.387778780781445676E-16, 0.0000000000000000000 ) ) ;
#295 = ADVANCED_FACE ( 'NONE', ( #23 ), #329, .T. ) ;
#296 = AXIS2_PLACEMENT_3D ( 'NONE', #160, #284, #258 ) ;
#297 = CARTESIAN_POINT ( 'NONE',  ( -50.00000000000000000, -25.00000000000000711, 19.50000000000000000 ) ) ;
#298 = LINE ( 'NONE', #66, #201 ) ;
#299 = CARTESIAN_POINT ( 'NONE',  ( 50.00000000000000000, -24.99999999999999289, 19.50000000000000000 ) ) ;
#300 = VECTOR ( 'NONE', #15, 1000.000000000000000 ) ;
#301 = EDGE_LOOP ( 'NONE', ( #10, #178, #69, #187 ) ) ;
#302 = VECTOR ( 'NONE', #100, 1000.000000000000000 ) ;
#303 = DATE_AND_TIME ( #191, #26 ) ;
#304 = APPROVAL ( #277, 'æœª' ) ;
#305 = EDGE_LOOP ( 'NONE', ( #129, #259, #35, #282 ) ) ;
#306 = DATE_TIME_ROLE ( 'creation_date' ) ;
#307 = DIRECTION ( 'NONE',  ( 1.000000000000000000, 0.0000000000000000000, -0.0000000000000000000 ) ) ;
#308 = EDGE_CURVE ( 'NONE', #112, #67, #120, .T. ) ;
#309 = VERTEX_POINT ( 'NONE', #62 ) ;
#310 = PERSON_AND_ORGANIZATION ( #272, #241 ) ;
#311 = DIRECTION ( 'NONE',  ( 0.0000000000000000000, 0.0000000000000000000, -1.000000000000000000 ) ) ;
#312 = CC_DESIGN_PERSON_AND_ORGANIZATION_ASSIGNMENT ( #217, #47, ( #248 ) ) ;
#313 = EDGE_LOOP ( 'NONE', ( #101, #331, #219, #189 ) ) ;
#314 = COORDINATED_UNIVERSAL_TIME_OFFSET ( 8, 0, .AHEAD. ) ;
#315 = FACE_OUTER_BOUND ( 'NONE', #301, .T. ) ;
#316 = ORIENTED_EDGE ( 'NONE', *, *, #104, .T. ) ;
#317 = DATE_TIME_ROLE ( 'classification_date' ) ;
#318 = CARTESIAN_POINT ( 'NONE',  ( -3.400058012914544272E-15, 24.50000000000001421, 20.00000000000000000 ) ) ;
#319 = LINE ( 'NONE', #89, #153 ) ;
#320 = VECTOR ( 'NONE', #53, 1000.000000000000000 ) ;
#321 = LINE ( 'NONE', #327, #84 ) ;
#322 = CARTESIAN_POINT ( 'NONE',  ( 50.00000000000000000, -24.99999999999999289, 0.0000000000000000000 ) ) ;
#323 = AXIS2_PLACEMENT_3D ( 'NONE', #318, #29, #56 ) ;
#324 = DIRECTION ( 'NONE',  ( -0.0000000000000000000, -1.000000000000000000, -0.0000000000000000000 ) ) ;
#325 = APPLICATION_CONTEXT ( 'configuration controlled 3d designs of mechanical parts and assemblies' ) ;
#326 = EDGE_CURVE ( 'NONE', #112, #22, #220, .T. ) ;
#327 = CARTESIAN_POINT ( 'NONE',  ( -50.00000000000000000, -25.00000000000000711, 20.00000000000000000 ) ) ;
#328 = EDGE_LOOP ( 'NONE', ( #255, #289, #206, #276 ) ) ;
#329 = PLANE ( 'NONE',  #8 ) ;
#330 = LOCAL_TIME ( 17, 0, 12.00000000000000000, #24 ) ;
#331 = ORIENTED_EDGE ( 'NONE', *, *, #200, .F. ) ;
#332 = COORDINATED_UNIVERSAL_TIME_OFFSET ( 8, 0, .AHEAD. ) ;
#333 = DIRECTION ( 'NONE',  ( -0.5773502691896204020, -0.5773502691896205130, 0.5773502691896362782 ) ) ;
ENDSEC;
END-ISO-10303-21;
